ISO-10303-21;
HEADER;
FILE_DESCRIPTION (( 'STEP AP203' ),
    '1' );
FILE_NAME ('BK7-NPBSC-20-420-700.STEP',
    '2020-12-22T02:10:41',
    ( '' ),
    ( '' ),
    'SwSTEP 2.0',
    'SolidWorks 2020',
    '' );
FILE_SCHEMA (( 'CONFIG_CONTROL_DESIGN' ));
ENDSEC;

DATA;
#1 = CARTESIAN_POINT ( 'NONE',  ( -9.999999999999998224, -10.00000000000000000, -10.00000000000000000 ) ) ;
#2 = ORIENTED_EDGE ( 'NONE', *, *, #97, .F. ) ;
#3 = DIRECTION ( 'NONE',  ( -0.7071067811865475727, -0.7071067811865474617, 0.000000000000000000 ) ) ;
#4 = PRODUCT_RELATED_PRODUCT_CATEGORY ( 'detail', '', ( #215 ) ) ;
#5 = CARTESIAN_POINT ( 'NONE',  ( -10.00000000000000178, -9.999999999999996447, 10.00000000000000000 ) ) ;
#6 = CARTESIAN_POINT ( 'NONE',  ( 10.00000000000000178, -10.00000000000000000, 10.00000000000000000 ) ) ;
#7 = PLANE ( 'NONE',  #160 ) ;
#8 = CARTESIAN_POINT ( 'NONE',  ( 0.000000000000000000, 0.000000000000000000, -10.00000000000000000 ) ) ;
#9 = EDGE_CURVE ( 'NONE', #104, #48, #79, .T. ) ;
#10 = FACE_OUTER_BOUND ( 'NONE', #21, .T. ) ;
#11 = CARTESIAN_POINT ( 'NONE',  ( -9.999999999999998224, -10.00000000000000000, 10.00000000000000000 ) ) ;
#12 = PERSON_AND_ORGANIZATION ( #69, #61 ) ;
#13 = VECTOR ( 'NONE', #126, 1000.000000000000000 ) ;
#14 = SECURITY_CLASSIFICATION_LEVEL ( 'unclassified' ) ;
#15 = VECTOR ( 'NONE', #130, 1000.000000000000000 ) ;
#16 = CC_DESIGN_DATE_AND_TIME_ASSIGNMENT ( #40, #165, ( #52 ) ) ;
#17 = EDGE_LOOP ( 'NONE', ( #277, #297, #235 ) ) ;
#18 = APPROVAL_PERSON_ORGANIZATION ( #66, #288, #227 ) ;
#19 = APPLICATION_CONTEXT ( 'configuration controlled 3d designs of mechanical parts and assemblies' ) ;
#20 = DATE_AND_TIME ( #228, #231 ) ;
#21 = EDGE_LOOP ( 'NONE', ( #203, #152, #51 ) ) ;
#22 = AXIS2_PLACEMENT_3D ( 'NONE', #11, #63, #210 ) ;
#23 = VERTEX_POINT ( 'NONE', #303 ) ;
#24 = ADVANCED_FACE ( 'NONE', ( #205 ), #7, .F. ) ;
#25 = UNCERTAINTY_MEASURE_WITH_UNIT (LENGTH_MEASURE( 1.000000000000000082E-05 ), #220, 'distance_accuracy_value', 'NONE');
#26 = CARTESIAN_POINT ( 'NONE',  ( 10.00000000000000000, 10.00000000000000000, 10.00000000000000000 ) ) ;
#27 = ORIENTED_EDGE ( 'NONE', *, *, #251, .F. ) ;
#28 = CARTESIAN_POINT ( 'NONE',  ( -9.999999999999998224, -10.00000000000000000, 10.00000000000000000 ) ) ;
#29 = DIRECTION ( 'NONE',  ( -1.000000000000000000, 0.000000000000000000, 0.000000000000000000 ) ) ;
#30 = EDGE_LOOP ( 'NONE', ( #230, #199, #200, #149 ) ) ;
#31 = CARTESIAN_POINT ( 'NONE',  ( -10.00000000000000178, -9.999999999999996447, 10.00000000000000000 ) ) ;
#32 = VECTOR ( 'NONE', #131, 1000.000000000000000 ) ;
#33 = DIRECTION ( 'NONE',  ( 1.000000000000000000, -2.220446049250313081E-16, 0.000000000000000000 ) ) ;
#34 = ADVANCED_FACE ( 'NONE', ( #180 ), #262, .T. ) ;
#35 = CARTESIAN_POINT ( 'NONE',  ( 10.00000000000000000, 10.00000000000000000, 10.00000000000000000 ) ) ;
#36 = DIRECTION ( 'NONE',  ( -0.000000000000000000, 0.000000000000000000, 1.000000000000000000 ) ) ;
#37 = LINE ( 'NONE', #138, #245 ) ;
#38 = EDGE_CURVE ( 'NONE', #256, #45, #310, .T. ) ;
#39 = APPROVAL_STATUS ( 'not_yet_approved' ) ;
#40 = DATE_AND_TIME ( #193, #240 ) ;
#41 = LOCAL_TIME ( 10, 10, 41.00000000000000000, #315 ) ;
#42 = ORIENTED_EDGE ( 'NONE', *, *, #251, .T. ) ;
#43 = CC_DESIGN_PERSON_AND_ORGANIZATION_ASSIGNMENT ( #89, #170, ( #52 ) ) ;
#44 = SHAPE_DEFINITION_REPRESENTATION ( #311, #99 ) ;
#45 = VERTEX_POINT ( 'NONE', #35 ) ;
#46 = VECTOR ( 'NONE', #59, 1000.000000000000000 ) ;
#47 = CC_DESIGN_DATE_AND_TIME_ASSIGNMENT ( #319, #122, ( #74 ) ) ;
#48 = VERTEX_POINT ( 'NONE', #190 ) ;
#49 = ORIENTED_EDGE ( 'NONE', *, *, #9, .T. ) ;
#50 = CARTESIAN_POINT ( 'NONE',  ( -10.00000000000000178, -9.999999999999996447, -10.00000000000000000 ) ) ;
#51 = ORIENTED_EDGE ( 'NONE', *, *, #142, .F. ) ;
#52 = PRODUCT_DEFINITION ( 'UNKNOWN', '', #93, #118 ) ;
#53 =( GEOMETRIC_REPRESENTATION_CONTEXT ( 3 ) GLOBAL_UNCERTAINTY_ASSIGNED_CONTEXT ( ( #25 ) ) GLOBAL_UNIT_ASSIGNED_CONTEXT ( ( #220, #143, #70 ) ) REPRESENTATION_CONTEXT ( 'NONE', 'WORKASPACE' ) );
#54 = PLANE ( 'NONE',  #292 ) ;
#55 = ORIENTED_EDGE ( 'NONE', *, *, #299, .T. ) ;
#56 = CARTESIAN_POINT ( 'NONE',  ( -9.999999999999998224, -10.00000000000000000, -10.00000000000000000 ) ) ;
#57 = ORIENTED_EDGE ( 'NONE', *, *, #255, .F. ) ;
#58 = DIRECTION ( 'NONE',  ( 2.220446049250313081E-16, 1.000000000000000000, 0.000000000000000000 ) ) ;
#59 = DIRECTION ( 'NONE',  ( 1.000000000000000000, 0.000000000000000000, 0.000000000000000000 ) ) ;
#60 = CARTESIAN_POINT ( 'NONE',  ( 10.00000000000000178, -10.00000000000000000, 10.00000000000000000 ) ) ;
#61 = ORGANIZATION ( 'UNSPECIFIED', 'UNSPECIFIED', '' ) ;
#62 = CARTESIAN_POINT ( 'NONE',  ( 10.00000000000000178, 9.999999999999998224, 10.00000000000000000 ) ) ;
#63 = DIRECTION ( 'NONE',  ( 0.000000000000000000, 1.000000000000000000, 0.000000000000000000 ) ) ;
#64 = APPROVAL_DATE_TIME ( #287, #288 ) ;
#65 = FACE_OUTER_BOUND ( 'NONE', #17, .T. ) ;
#66 = PERSON_AND_ORGANIZATION ( #69, #61 ) ;
#67 = ADVANCED_FACE ( 'NONE', ( #133 ), #307, .F. ) ;
#68 = APPLICATION_PROTOCOL_DEFINITION ( 'international standard', 'config_control_design', 1994, #19 ) ;
#69 = PERSON ( 'UNSPECIFIED', 'UNSPECIFIED', 'UNSPECIFIED', ('UNSPECIFIED'), ('UNSPECIFIED'), ('UNSPECIFIED') ) ;
#70 =( NAMED_UNIT ( * ) SI_UNIT ( $, .STERADIAN. ) SOLID_ANGLE_UNIT ( ) );
#71 = PERSON_AND_ORGANIZATION ( #69, #61 ) ;
#72 = ORIENTED_EDGE ( 'NONE', *, *, #299, .F. ) ;
#73 = VERTEX_POINT ( 'NONE', #86 ) ;
#74 = SECURITY_CLASSIFICATION ( '', '', #14 ) ;
#75 = EDGE_LOOP ( 'NONE', ( #198, #176, #72, #123 ) ) ;
#76 = CARTESIAN_POINT ( 'NONE',  ( -9.999999999999998224, 10.00000000000000355, 10.00000000000000000 ) ) ;
#77 = CC_DESIGN_PERSON_AND_ORGANIZATION_ASSIGNMENT ( #90, #290, ( #215 ) ) ;
#78 = ORIENTED_EDGE ( 'NONE', *, *, #87, .T. ) ;
#79 = LINE ( 'NONE', #185, #115 ) ;
#80 = LINE ( 'NONE', #264, #15 ) ;
#81 = PLANE ( 'NONE',  #272 ) ;
#82 = DIRECTION ( 'NONE',  ( -0.000000000000000000, -0.000000000000000000, -1.000000000000000000 ) ) ;
#83 = DIRECTION ( 'NONE',  ( -0.000000000000000000, 1.000000000000000000, -0.000000000000000000 ) ) ;
#84 = FACE_OUTER_BOUND ( 'NONE', #275, .T. ) ;
#85 = VECTOR ( 'NONE', #83, 1000.000000000000000 ) ;
#86 = CARTESIAN_POINT ( 'NONE',  ( -9.999999999999998224, 10.00000000000000355, -10.00000000000000000 ) ) ;
#87 = EDGE_CURVE ( 'NONE', #96, #121, #281, .T. ) ;
#88 = DIRECTION ( 'NONE',  ( -0.000000000000000000, 1.000000000000000000, -0.000000000000000000 ) ) ;
#89 = PERSON_AND_ORGANIZATION ( #69, #61 ) ;
#90 = PERSON_AND_ORGANIZATION ( #69, #61 ) ;
#91 = CC_DESIGN_APPROVAL ( #250, ( #74 ) ) ;
#92 = APPROVAL_DATE_TIME ( #20, #250 ) ;
#93 = PRODUCT_DEFINITION_FORMATION_WITH_SPECIFIED_SOURCE ( 'ANY', '', #215, .NOT_KNOWN. ) ;
#94 = ORIENTED_EDGE ( 'NONE', *, *, #280, .T. ) ;
#95 = ORIENTED_EDGE ( 'NONE', *, *, #87, .F. ) ;
#96 = VERTEX_POINT ( 'NONE', #60 ) ;
#97 = EDGE_CURVE ( 'NONE', #121, #23, #263, .T. ) ;
#98 = COORDINATED_UNIVERSAL_TIME_OFFSET ( 8, 0, .AHEAD. ) ;
#99 = ADVANCED_BREP_SHAPE_REPRESENTATION ( 'BK7-NPBSC-20-420-700', ( #174, #181, #269 ), #53 ) ;
#100 = VERTEX_POINT ( 'NONE', #206 ) ;
#101 = DIRECTION ( 'NONE',  ( 0.7071067811865475727, 0.7071067811865474617, 0.000000000000000000 ) ) ;
#102 = DIRECTION ( 'NONE',  ( 0.000000000000000000, -0.000000000000000000, 1.000000000000000000 ) ) ;
#103 = VECTOR ( 'NONE', #243, 1000.000000000000000 ) ;
#104 = VERTEX_POINT ( 'NONE', #5 ) ;
#105 = APPROVAL ( #39, 'UNSPECIFIED' ) ;
#106 = CARTESIAN_POINT ( 'NONE',  ( 0.000000000000000000, 0.000000000000000000, 10.00000000000000000 ) ) ;
#107 = FACE_OUTER_BOUND ( 'NONE', #212, .T. ) ;
#108 = DIRECTION ( 'NONE',  ( 2.220446049250313081E-16, 1.000000000000000000, 0.000000000000000000 ) ) ;
#109 = AXIS2_PLACEMENT_3D ( 'NONE', #8, #166, #186 ) ;
#110 = LINE ( 'NONE', #31, #237 ) ;
#111 = CC_DESIGN_APPROVAL ( #288, ( #93 ) ) ;
#112 = APPLICATION_PROTOCOL_DEFINITION ( 'international standard', 'config_control_design', 1994, #209 ) ;
#113 = PERSON_AND_ORGANIZATION ( #69, #61 ) ;
#114 = ADVANCED_FACE ( 'NONE', ( #183 ), #304, .F. ) ;
#115 = VECTOR ( 'NONE', #127, 1000.000000000000000 ) ;
#116 = APPROVAL_DATE_TIME ( #271, #105 ) ;
#117 = VECTOR ( 'NONE', #108, 1000.000000000000000 ) ;
#118 = DESIGN_CONTEXT ( 'detailed design', #19, 'design' ) ;
#119 = CALENDAR_DATE ( 2020, 22, 12 ) ;
#120 = LOCAL_TIME ( 10, 10, 41.00000000000000000, #191 ) ;
#121 = VERTEX_POINT ( 'NONE', #162 ) ;
#122 = DATE_TIME_ROLE ( 'classification_date' ) ;
#123 = ORIENTED_EDGE ( 'NONE', *, *, #97, .T. ) ;
#124 = ORIENTED_EDGE ( 'NONE', *, *, #194, .T. ) ;
#125 = VECTOR ( 'NONE', #88, 1000.000000000000000 ) ;
#126 = DIRECTION ( 'NONE',  ( -0.000000000000000000, 0.000000000000000000, -1.000000000000000000 ) ) ;
#127 = DIRECTION ( 'NONE',  ( -0.000000000000000000, 0.000000000000000000, -1.000000000000000000 ) ) ;
#128 = CARTESIAN_POINT ( 'NONE',  ( 10.00000000000000000, 10.00000000000000000, 10.00000000000000000 ) ) ;
#129 = EDGE_LOOP ( 'NONE', ( #57, #239, #273, #252 ) ) ;
#130 = DIRECTION ( 'NONE',  ( 1.000000000000000000, -2.220446049250313081E-16, 0.000000000000000000 ) ) ;
#131 = DIRECTION ( 'NONE',  ( -0.000000000000000000, -0.000000000000000000, -1.000000000000000000 ) ) ;
#132 = LINE ( 'NONE', #50, #117 ) ;
#133 = FACE_OUTER_BOUND ( 'NONE', #129, .T. ) ;
#134 = CARTESIAN_POINT ( 'NONE',  ( 10.00000000000000178, 9.999999999999998224, 10.00000000000000000 ) ) ;
#135 = DIRECTION ( 'NONE',  ( -2.220446049250313081E-16, -1.000000000000000000, 0.000000000000000000 ) ) ;
#136 = ADVANCED_FACE ( 'NONE', ( #314 ), #81, .F. ) ;
#137 = CALENDAR_DATE ( 2020, 22, 12 ) ;
#138 = CARTESIAN_POINT ( 'NONE',  ( 10.00000000000000178, 9.999999999999998224, -10.00000000000000000 ) ) ;
#139 = APPROVAL_PERSON_ORGANIZATION ( #71, #250, #294 ) ;
#140 = CALENDAR_DATE ( 2020, 22, 12 ) ;
#141 = DIRECTION ( 'NONE',  ( 1.000000000000000000, 0.000000000000000000, 0.000000000000000000 ) ) ;
#142 = EDGE_CURVE ( 'NONE', #104, #256, #110, .T. ) ;
#143 =( NAMED_UNIT ( * ) PLANE_ANGLE_UNIT ( ) SI_UNIT ( $, .RADIAN. ) );
#144 = CC_DESIGN_APPROVAL ( #105, ( #52 ) ) ;
#145 = APPROVAL_PERSON_ORGANIZATION ( #12, #105, #289 ) ;
#146 = APPROVAL_STATUS ( 'not_yet_approved' ) ;
#147 = EDGE_CURVE ( 'NONE', #100, #23, #159, .T. ) ;
#148 = VERTEX_POINT ( 'NONE', #192 ) ;
#149 = ORIENTED_EDGE ( 'NONE', *, *, #222, .T. ) ;
#150 = AXIS2_PLACEMENT_3D ( 'NONE', #154, #102, #179 ) ;
#151 = CARTESIAN_POINT ( 'NONE',  ( 10.00000000000000000, 10.00000000000000000, -10.00000000000000000 ) ) ;
#152 = ORIENTED_EDGE ( 'NONE', *, *, #38, .F. ) ;
#153 = ADVANCED_FACE ( 'NONE', ( #65 ), #236, .F. ) ;
#154 = CARTESIAN_POINT ( 'NONE',  ( 0.000000000000000000, 0.000000000000000000, 10.00000000000000000 ) ) ;
#155 = EDGE_LOOP ( 'NONE', ( #306, #94, #158 ) ) ;
#156 = LINE ( 'NONE', #28, #32 ) ;
#157 = PLANE ( 'NONE',  #150 ) ;
#158 = ORIENTED_EDGE ( 'NONE', *, *, #255, .T. ) ;
#159 = LINE ( 'NONE', #221, #125 ) ;
#160 = AXIS2_PLACEMENT_3D ( 'NONE', #208, #265, #101 ) ;
#161 = FACE_OUTER_BOUND ( 'NONE', #30, .T. ) ;
#162 = CARTESIAN_POINT ( 'NONE',  ( 10.00000000000000178, 9.999999999999998224, 10.00000000000000000 ) ) ;
#163 = DIRECTION ( 'NONE',  ( -0.7071067811865475727, -0.7071067811865474617, 0.000000000000000000 ) ) ;
#164 = DIRECTION ( 'NONE',  ( 0.000000000000000000, -0.000000000000000000, 1.000000000000000000 ) ) ;
#165 = DATE_TIME_ROLE ( 'creation_date' ) ;
#166 = DIRECTION ( 'NONE',  ( -0.000000000000000000, 0.000000000000000000, 1.000000000000000000 ) ) ;
#167 = AXIS2_PLACEMENT_3D ( 'NONE', #283, #135, #188 ) ;
#168 = MECHANICAL_CONTEXT ( 'NONE', #209, 'mechanical' ) ;
#169 = COORDINATED_UNIVERSAL_TIME_OFFSET ( 8, 0, .AHEAD. ) ;
#170 = PERSON_AND_ORGANIZATION_ROLE ( 'creator' ) ;
#171 = CLOSED_SHELL ( 'NONE', ( #24, #114, #201, #34, #153 ) ) ;
#172 = CC_DESIGN_PERSON_AND_ORGANIZATION_ASSIGNMENT ( #247, #318, ( #93 ) ) ;
#173 = EDGE_LOOP ( 'NONE', ( #55, #178, #78 ) ) ;
#174 = MANIFOLD_SOLID_BREP ( 'Í¹Ì¨-À', #171 ) ;
#175 = EDGE_CURVE ( 'NONE', #23, #254, #37, .T. ) ;
#176 = ORIENTED_EDGE ( 'NONE', *, *, #194, .F. ) ;
#177 = ORIENTED_EDGE ( 'NONE', *, *, #196, .T. ) ;
#178 = ORIENTED_EDGE ( 'NONE', *, *, #257, .T. ) ;
#179 = DIRECTION ( 'NONE',  ( 2.220446049250313081E-16, 1.000000000000000000, 0.000000000000000000 ) ) ;
#180 = FACE_OUTER_BOUND ( 'NONE', #173, .T. ) ;
#181 = MANIFOLD_SOLID_BREP ( '¾µÏ', #258 ) ;
#182 = VECTOR ( 'NONE', #3, 1000.000000000000000 ) ;
#183 = FACE_OUTER_BOUND ( 'NONE', #321, .T. ) ;
#184 = DIRECTION ( 'NONE',  ( -0.000000000000000000, 0.000000000000000000, -1.000000000000000000 ) ) ;
#185 = CARTESIAN_POINT ( 'NONE',  ( -10.00000000000000178, -9.999999999999996447, 10.00000000000000000 ) ) ;
#186 = DIRECTION ( 'NONE',  ( 1.000000000000000000, 0.000000000000000000, 0.000000000000000000 ) ) ;
#187 = CARTESIAN_POINT ( 'NONE',  ( -9.999999999999998224, -10.00000000000000000, 10.00000000000000000 ) ) ;
#188 = DIRECTION ( 'NONE',  ( 0.000000000000000000, 0.000000000000000000, 1.000000000000000000 ) ) ;
#189 = DIRECTION ( 'NONE',  ( 0.000000000000000000, 0.000000000000000000, 1.000000000000000000 ) ) ;
#190 = CARTESIAN_POINT ( 'NONE',  ( -10.00000000000000178, -9.999999999999996447, -10.00000000000000000 ) ) ;
#191 = COORDINATED_UNIVERSAL_TIME_OFFSET ( 8, 0, .AHEAD. ) ;
#192 = CARTESIAN_POINT ( 'NONE',  ( -9.999999999999998224, -10.00000000000000000, 10.00000000000000000 ) ) ;
#193 = CALENDAR_DATE ( 2020, 22, 12 ) ;
#194 = EDGE_CURVE ( 'NONE', #148, #254, #156, .T. ) ;
#195 = PERSON_AND_ORGANIZATION ( #69, #61 ) ;
#196 = EDGE_CURVE ( 'NONE', #254, #100, #241, .T. ) ;
#197 = VECTOR ( 'NONE', #234, 1000.000000000000000 ) ;
#198 = ORIENTED_EDGE ( 'NONE', *, *, #175, .T. ) ;
#199 = ORIENTED_EDGE ( 'NONE', *, *, #9, .F. ) ;
#200 = ORIENTED_EDGE ( 'NONE', *, *, #142, .T. ) ;
#201 = ADVANCED_FACE ( 'NONE', ( #107 ), #54, .F. ) ;
#202 = CARTESIAN_POINT ( 'NONE',  ( 10.00000000000000000, 10.00000000000000000, 10.00000000000000000 ) ) ;
#203 = ORIENTED_EDGE ( 'NONE', *, *, #225, .F. ) ;
#204 = DIRECTION ( 'NONE',  ( 0.000000000000000000, 0.000000000000000000, 1.000000000000000000 ) ) ;
#205 = FACE_OUTER_BOUND ( 'NONE', #75, .T. ) ;
#206 = CARTESIAN_POINT ( 'NONE',  ( 10.00000000000000178, -10.00000000000000000, -10.00000000000000000 ) ) ;
#207 = PLANE ( 'NONE',  #226 ) ;
#208 = CARTESIAN_POINT ( 'NONE',  ( 10.00000000000000178, 9.999999999999998224, 10.00000000000000000 ) ) ;
#209 = APPLICATION_CONTEXT ( 'configuration controlled 3d designs of mechanical parts and assemblies' ) ;
#210 = DIRECTION ( 'NONE',  ( 0.000000000000000000, -0.000000000000000000, 1.000000000000000000 ) ) ;
#211 = ADVANCED_FACE ( 'NONE', ( #10 ), #157, .T. ) ;
#212 = EDGE_LOOP ( 'NONE', ( #293, #2, #95, #42 ) ) ;
#213 = CARTESIAN_POINT ( 'NONE',  ( 10.00000000000000178, 9.999999999999998224, 10.00000000000000000 ) ) ;
#214 = EDGE_CURVE ( 'NONE', #295, #48, #298, .T. ) ;
#215 = PRODUCT ( 'BK7-NPBSC-20-420-700', 'BK7-NPBSC-20-420-700', '', ( #168 ) ) ;
#216 = CARTESIAN_POINT ( 'NONE',  ( 10.00000000000000000, 10.00000000000000000, -10.00000000000000000 ) ) ;
#217 = DIRECTION ( 'NONE',  ( 1.000000000000000000, 0.000000000000000000, 0.000000000000000000 ) ) ;
#218 = CC_DESIGN_PERSON_AND_ORGANIZATION_ASSIGNMENT ( #113, #223, ( #74 ) ) ;
#219 = VECTOR ( 'NONE', #266, 1000.000000000000000 ) ;
#220 =( LENGTH_UNIT ( ) NAMED_UNIT ( * ) SI_UNIT ( .MILLI., .METRE. ) );
#221 = CARTESIAN_POINT ( 'NONE',  ( 10.00000000000000178, 9.999999999999998224, -10.00000000000000000 ) ) ;
#222 = EDGE_CURVE ( 'NONE', #256, #73, #305, .T. ) ;
#223 = PERSON_AND_ORGANIZATION_ROLE ( 'classification_officer' ) ;
#224 = VECTOR ( 'NONE', #282, 1000.000000000000000 ) ;
#225 = EDGE_CURVE ( 'NONE', #45, #104, #261, .T. ) ;
#226 = AXIS2_PLACEMENT_3D ( 'NONE', #202, #296, #242 ) ;
#227 = APPROVAL_ROLE ( '' ) ;
#228 = CALENDAR_DATE ( 2020, 22, 12 ) ;
#229 = ORIENTED_EDGE ( 'NONE', *, *, #308, .F. ) ;
#230 = ORIENTED_EDGE ( 'NONE', *, *, #280, .F. ) ;
#231 = LOCAL_TIME ( 10, 10, 41.00000000000000000, #98 ) ;
#232 = ORIENTED_EDGE ( 'NONE', *, *, #214, .F. ) ;
#233 = ADVANCED_FACE ( 'NONE', ( #84 ), #207, .F. ) ;
#234 = DIRECTION ( 'NONE',  ( -0.7071067811865475727, -0.7071067811865474617, 0.000000000000000000 ) ) ;
#235 = ORIENTED_EDGE ( 'NONE', *, *, #196, .F. ) ;
#236 = PLANE ( 'NONE',  #109 ) ;
#237 = VECTOR ( 'NONE', #58, 1000.000000000000000 ) ;
#238 = LINE ( 'NONE', #187, #46 ) ;
#239 = ORIENTED_EDGE ( 'NONE', *, *, #222, .F. ) ;
#240 = LOCAL_TIME ( 10, 10, 41.00000000000000000, #248 ) ;
#241 = LINE ( 'NONE', #56, #224 ) ;
#242 = DIRECTION ( 'NONE',  ( 0.7071067811865475727, 0.7071067811865474617, 0.000000000000000000 ) ) ;
#243 = DIRECTION ( 'NONE',  ( -0.000000000000000000, -0.000000000000000000, -1.000000000000000000 ) ) ;
#244 = CARTESIAN_POINT ( 'NONE',  ( 10.00000000000000000, 10.00000000000000000, 10.00000000000000000 ) ) ;
#245 = VECTOR ( 'NONE', #279, 1000.000000000000000 ) ;
#246 = DIRECTION ( 'NONE',  ( 2.220446049250313081E-16, 1.000000000000000000, 0.000000000000000000 ) ) ;
#247 = PERSON_AND_ORGANIZATION ( #69, #61 ) ;
#248 = COORDINATED_UNIVERSAL_TIME_OFFSET ( 8, 0, .AHEAD. ) ;
#249 = VECTOR ( 'NONE', #184, 1000.000000000000000 ) ;
#250 = APPROVAL ( #146, 'UNSPECIFIED' ) ;
#251 = EDGE_CURVE ( 'NONE', #96, #100, #302, .T. ) ;
#252 = ORIENTED_EDGE ( 'NONE', *, *, #308, .T. ) ;
#253 = VECTOR ( 'NONE', #82, 1000.000000000000000 ) ;
#254 = VERTEX_POINT ( 'NONE', #1 ) ;
#255 = EDGE_CURVE ( 'NONE', #73, #295, #80, .T. ) ;
#256 = VERTEX_POINT ( 'NONE', #76 ) ;
#257 = EDGE_CURVE ( 'NONE', #148, #96, #238, .T. ) ;
#258 = CLOSED_SHELL ( 'NONE', ( #233, #270, #67, #211, #136 ) ) ;
#259 = VECTOR ( 'NONE', #163, 1000.000000000000000 ) ;
#260 = LINE ( 'NONE', #26, #13 ) ;
#261 = LINE ( 'NONE', #128, #182 ) ;
#262 = PLANE ( 'NONE',  #301 ) ;
#263 = LINE ( 'NONE', #286, #103 ) ;
#264 = CARTESIAN_POINT ( 'NONE',  ( 10.00000000000000000, 10.00000000000000000, -10.00000000000000000 ) ) ;
#265 = DIRECTION ( 'NONE',  ( 0.7071067811865474617, -0.7071067811865475727, 0.000000000000000000 ) ) ;
#266 = DIRECTION ( 'NONE',  ( 1.000000000000000000, -2.220446049250313081E-16, 0.000000000000000000 ) ) ;
#267 = CARTESIAN_POINT ( 'NONE',  ( -10.00000000000000178, -9.999999999999996447, 10.00000000000000000 ) ) ;
#268 = APPROVAL_STATUS ( 'not_yet_approved' ) ;
#269 = AXIS2_PLACEMENT_3D ( 'NONE', #312, #317, #141 ) ;
#270 = ADVANCED_FACE ( 'NONE', ( #161 ), #276, .F. ) ;
#271 = DATE_AND_TIME ( #137, #285 ) ;
#272 = AXIS2_PLACEMENT_3D ( 'NONE', #300, #164, #246 ) ;
#273 = ORIENTED_EDGE ( 'NONE', *, *, #38, .T. ) ;
#274 = ORIENTED_EDGE ( 'NONE', *, *, #225, .T. ) ;
#275 = EDGE_LOOP ( 'NONE', ( #232, #229, #274, #49 ) ) ;
#276 = PLANE ( 'NONE',  #278 ) ;
#277 = ORIENTED_EDGE ( 'NONE', *, *, #175, .F. ) ;
#278 = AXIS2_PLACEMENT_3D ( 'NONE', #267, #33, #189 ) ;
#279 = DIRECTION ( 'NONE',  ( -0.7071067811865475727, -0.7071067811865474617, 0.000000000000000000 ) ) ;
#280 = EDGE_CURVE ( 'NONE', #48, #73, #132, .T. ) ;
#281 = LINE ( 'NONE', #213, #85 ) ;
#282 = DIRECTION ( 'NONE',  ( 1.000000000000000000, 0.000000000000000000, 0.000000000000000000 ) ) ;
#283 = CARTESIAN_POINT ( 'NONE',  ( 10.00000000000000000, 10.00000000000000000, 10.00000000000000000 ) ) ;
#284 = LINE ( 'NONE', #62, #259 ) ;
#285 = LOCAL_TIME ( 10, 10, 41.00000000000000000, #169 ) ;
#286 = CARTESIAN_POINT ( 'NONE',  ( 10.00000000000000178, 9.999999999999998224, 10.00000000000000000 ) ) ;
#287 = DATE_AND_TIME ( #140, #120 ) ;
#288 = APPROVAL ( #268, 'UNSPECIFIED' ) ;
#289 = APPROVAL_ROLE ( '' ) ;
#290 = PERSON_AND_ORGANIZATION_ROLE ( 'design_owner' ) ;
#291 = PERSON_AND_ORGANIZATION_ROLE ( 'design_supplier' ) ;
#292 = AXIS2_PLACEMENT_3D ( 'NONE', #134, #29, #204 ) ;
#293 = ORIENTED_EDGE ( 'NONE', *, *, #147, .T. ) ;
#294 = APPROVAL_ROLE ( '' ) ;
#295 = VERTEX_POINT ( 'NONE', #151 ) ;
#296 = DIRECTION ( 'NONE',  ( -0.7071067811865474617, 0.7071067811865475727, 0.000000000000000000 ) ) ;
#297 = ORIENTED_EDGE ( 'NONE', *, *, #147, .F. ) ;
#298 = LINE ( 'NONE', #216, #197 ) ;
#299 = EDGE_CURVE ( 'NONE', #121, #148, #284, .T. ) ;
#300 = CARTESIAN_POINT ( 'NONE',  ( 0.000000000000000000, 0.000000000000000000, -10.00000000000000000 ) ) ;
#301 = AXIS2_PLACEMENT_3D ( 'NONE', #106, #36, #217 ) ;
#302 = LINE ( 'NONE', #6, #253 ) ;
#303 = CARTESIAN_POINT ( 'NONE',  ( 10.00000000000000178, 9.999999999999998224, -10.00000000000000000 ) ) ;
#304 = PLANE ( 'NONE',  #22 ) ;
#305 = LINE ( 'NONE', #309, #249 ) ;
#306 = ORIENTED_EDGE ( 'NONE', *, *, #214, .T. ) ;
#307 = PLANE ( 'NONE',  #167 ) ;
#308 = EDGE_CURVE ( 'NONE', #45, #295, #260, .T. ) ;
#309 = CARTESIAN_POINT ( 'NONE',  ( -9.999999999999998224, 10.00000000000000355, 10.00000000000000000 ) ) ;
#310 = LINE ( 'NONE', #244, #219 ) ;
#311 = PRODUCT_DEFINITION_SHAPE ( 'NONE', 'NONE',  #52 ) ;
#312 = CARTESIAN_POINT ( 'NONE',  ( 0.000000000000000000, 0.000000000000000000, 0.000000000000000000 ) ) ;
#313 = CC_DESIGN_SECURITY_CLASSIFICATION ( #74, ( #93 ) ) ;
#314 = FACE_OUTER_BOUND ( 'NONE', #155, .T. ) ;
#315 = COORDINATED_UNIVERSAL_TIME_OFFSET ( 8, 0, .AHEAD. ) ;
#316 = CC_DESIGN_PERSON_AND_ORGANIZATION_ASSIGNMENT ( #195, #291, ( #93 ) ) ;
#317 = DIRECTION ( 'NONE',  ( 0.000000000000000000, 0.000000000000000000, 1.000000000000000000 ) ) ;
#318 = PERSON_AND_ORGANIZATION_ROLE ( 'creator' ) ;
#319 = DATE_AND_TIME ( #119, #41 ) ;
#320 = ORIENTED_EDGE ( 'NONE', *, *, #257, .F. ) ;
#321 = EDGE_LOOP ( 'NONE', ( #177, #27, #320, #124 ) ) ;
ENDSEC;
END-ISO-10303-21;
